  0
SECTION
  2
HEADER
  9
$ACADVER
  1
AC1015
  9
$ACADMAINTVER
 70
     6
  9
$DWGCODEPAGE
  3
ANSI_1254
  9
$INSBASE
 10
0.0
 20
0.0
 30
0.0
  9
$EXTMIN
 10
0.0
 20
0.0
 30
0.0
  9
$EXTMAX
 10
279.4
 20
215.9
 30
0.0
  9
$LIMMIN
 10
0.0
 20
0.0
  9
$LIMMAX
 10
279.4
 20
215.9
  9
$ORTHOMODE
 70
     0
  9
$REGENMODE
 70
     1
  9
$FILLMODE
 70
     1
  9
$QTEXTMODE
 70
     0
  9
$MIRRTEXT
 70
     1
  9
$LTSCALE
 40
1.0
  9
$ATTMODE
 70
     1
  9
$TEXTSIZE
 40
3.5
  9
$TRACEWID
 40
1.0
  9
$TEXTSTYLE
  7
Standard
  9
$CLAYER
  8
0
  9
$CELTYPE
  6
ByLayer
  9
$CECOLOR
 62
   256
  9
$CELTSCALE
 40
1.0
  9
$DISPSILH
 70
     0
  9
$DIMSCALE
 40
1.0
  9
$DIMASZ
 40
3.5
  9
$DIMEXO
 40
1.0
  9
$DIMDLI
 40
3.75
  9
$DIMRND
 40
0.0
  9
$DIMDLE
 40
0.0
  9
$DIMEXE
 40
1.0
  9
$DIMTP
 40
0.0
  9
$DIMTM
 40
0.0
  9
$DIMTXT
 40
3.5
  9
$DIMCEN
 40
2.5
  9
$DIMTSZ
 40
0.0
  9
$DIMTOL
 70
     0
  9
$DIMLIM
 70
     0
  9
$DIMTIH
 70
     1
  9
$DIMTOH
 70
     1
  9
$DIMSE1
 70
     0
  9
$DIMSE2
 70
     0
  9
$DIMTAD
 70
     1
  9
$DIMZIN
 70
     0
  9
$DIMBLK
  1

  9
$DIMASO
 70
     1
  9
$DIMSHO
 70
     1
  9
$DIMPOST
  1

  9
$DIMAPOST
  1

  9
$DIMALT
 70
     0
  9
$DIMALTD
 70
     3
  9
$DIMALTF
 40
0.0393700787
  9
$DIMLFAC
 40
1.0
  9
$DIMTOFL
 70
     1
  9
$DIMTVP
 40
0.0
  9
$DIMTIX
 70
     0
  9
$DIMSOXD
 70
     0
  9
$DIMSAH
 70
     0
  9
$DIMBLK1
  1

  9
$DIMBLK2
  1

  9
$DIMSTYLE
  2
ISO-25
  9
$DIMCLRD
 70
     0
  9
$DIMCLRE
 70
     0
  9
$DIMCLRT
 70
     0
  9
$DIMTFAC
 40
1.0
  9
$DIMGAP
 40
1.524
  9
$DIMJUST
 70
     0
  9
$DIMSD1
 70
     0
  9
$DIMSD2
 70
     0
  9
$DIMTOLJ
 70
     0
  9
$DIMTZIN
 70
     0
  9
$DIMALTZ
 70
     0
  9
$DIMALTTZ
 70
     0
  9
$DIMUPT
 70
     0
  9
$DIMDEC
 70
     2
  9
$DIMTDEC
 70
     2
  9
$DIMALTU
 70
     2
  9
$DIMALTTD
 70
     3
  9
$DIMTXSTY
  7
Standard
  9
$DIMAUNIT
 70
     0
  9
$DIMADEC
 70
     2
  9
$DIMALTRND
 40
0.0
  9
$DIMAZIN
 70
     0
  9
$DIMDSEP
 70
    44
  9
$DIMATFIT
 70
     3
  9
$DIMFRAC
 70
     0
  9
$DIMLDRBLK
  1

  9
$DIMLUNIT
 70
     2
  9
$DIMLWD
 70
    -2
  9
$DIMLWE
 70
    -2
  9
$DIMTMOVE
 70
     0
  9
$LUNITS
 70
     2
  9
$LUPREC
 70
     2
  9
$SKETCHINC
 40
1.0
  9
$FILLETRAD
 40
10.0
  9
$AUNITS
 70
     0
  9
$AUPREC
 70
     2
  9
$MENU
  1
.
  9
$ELEVATION
 40
0.0
  9
$PELEVATION
 40
0.0
  9
$THICKNESS
 40
0.0
  9
$LIMCHECK
 70
     0
  9
$CHAMFERA
 40
0.0
  9
$CHAMFERB
 40
0.0
  9
$CHAMFERC
 40
0.0
  9
$CHAMFERD
 40
0.0
  9
$SKPOLY
 70
     0
  9
$TDCREATE
 40
2458985.665910474
  9
$TDUCREATE
 40
2458985.540910474
  9
$TDUPDATE
 40
2458985.665910741
  9
$TDUUPDATE
 40
2458985.540910741
  9
$TDINDWG
 40
0.0000000116
  9
$TDUSRTIMER
 40
0.0000000116
  9
$USRTIMER
 70
     1
  9
$ANGBASE
 50
0.0
  9
$ANGDIR
 70
     0
  9
$PDMODE
 70
     0
  9
$PDSIZE
 40
-1.0
  9
$PLINEWID
 40
0.0
  9
$SPLFRAME
 70
     0
  9
$SPLINETYPE
 70
     6
  9
$SPLINESEGS
 70
     8
  9
$HANDSEED
  5
D3
  9
$SURFTAB1
 70
     6
  9
$SURFTAB2
 70
     6
  9
$SURFTYPE
 70
     6
  9
$SURFU
 70
     6
  9
$SURFV
 70
     6
  9
$UCSBASE
  2

  9
$UCSNAME
  2

  9
$UCSORG
 10
0.0
 20
0.0
 30
0.0
  9
$UCSXDIR
 10
1.0
 20
0.0
 30
0.0
  9
$UCSYDIR
 10
0.0
 20
1.0
 30
0.0
  9
$UCSORTHOREF
  2

  9
$UCSORTHOVIEW
 70
     0
  9
$UCSORGTOP
 10
0.0
 20
0.0
 30
0.0
  9
$UCSORGBOTTOM
 10
0.0
 20
0.0
 30
0.0
  9
$UCSORGLEFT
 10
0.0
 20
0.0
 30
0.0
  9
$UCSORGRIGHT
 10
0.0
 20
0.0
 30
0.0
  9
$UCSORGFRONT
 10
0.0
 20
0.0
 30
0.0
  9
$UCSORGBACK
 10
0.0
 20
0.0
 30
0.0
  9
$PUCSBASE
  2

  9
$PUCSNAME
  2

  9
$PUCSORG
 10
0.0
 20
0.0
 30
0.0
  9
$PUCSXDIR
 10
1.0
 20
0.0
 30
0.0
  9
$PUCSYDIR
 10
0.0
 20
1.0
 30
0.0
  9
$PUCSORTHOREF
  2

  9
$PUCSORTHOVIEW
 70
     0
  9
$PUCSORGTOP
 10
0.0
 20
0.0
 30
0.0
  9
$PUCSORGBOTTOM
 10
0.0
 20
0.0
 30
0.0
  9
$PUCSORGLEFT
 10
0.0
 20
0.0
 30
0.0
  9
$PUCSORGRIGHT
 10
0.0
 20
0.0
 30
0.0
  9
$PUCSORGFRONT
 10
0.0
 20
0.0
 30
0.0
  9
$PUCSORGBACK
 10
0.0
 20
0.0
 30
0.0
  9
$USERI1
 70
     0
  9
$USERI2
 70
     0
  9
$USERI3
 70
     0
  9
$USERI4
 70
     0
  9
$USERI5
 70
     0
  9
$USERR1
 40
0.0
  9
$USERR2
 40
0.0
  9
$USERR3
 40
0.0
  9
$USERR4
 40
0.0
  9
$USERR5
 40
0.0
  9
$WORLDVIEW
 70
     1
  9
$SHADEDGE
 70
     3
  9
$SHADEDIF
 70
    70
  9
$TILEMODE
 70
     1
  9
$MAXACTVP
 70
    64
  9
$PINSBASE
 10
0.0
 20
0.0
 30
0.0
  9
$PLIMCHECK
 70
     0
  9
$PEXTMIN
 10
1.0000000000E+20
 20
1.0000000000E+20
 30
1.0000000000E+20
  9
$PEXTMAX
 10
-1.0000000000E+20
 20
-1.0000000000E+20
 30
-1.0000000000E+20
  9
$PLIMMIN
 10
0.0
 20
0.0
  9
$PLIMMAX
 10
420.0
 20
297.0
  9
$UNITMODE
 70
     0
  9
$VISRETAIN
 70
     1
  9
$PLINEGEN
 70
     0
  9
$PSLTSCALE
 70
     1
  9
$TREEDEPTH
 70
  3020
  9
$CMLSTYLE
  2
Standard
  9
$CMLJUST
 70
     0
  9
$CMLSCALE
 40
20.0
  9
$PROXYGRAPHICS
 70
     1
  9
$MEASUREMENT
 70
     1
  9
$CELWEIGHT
370
    -1
  9
$ENDCAPS
280
     0
  9
$JOINSTYLE
280
     0
  9
$LWDISPLAY
290
     1
  9
$INSUNITS
 70
     4
  9
$HYPERLINKBASE
  1

  9
$STYLESHEET
  1

  9
$XEDIT
290
     1
  9
$CEPSNTYPE
380
     0
  9
$PSTYLEMODE
290
     1
  9
$FINGERPRINTGUID
  2
{22fc460a-3540-441f-adef-e078b02d1189}
  9
$VERSIONGUID
  2
{FAEB1C32-E019-11D5-929B-00C0DF256EC4}
  9
$EXTNAMES
290
     1
  9
$PSVPSCALE
 40
0.0
  9
$OLESTARTUP
290
     0
  0
ENDSEC
  0
SECTION
  2
CLASSES
  0
CLASS
  1
ACDBDICTIONARYWDFLT
  2
AcDbDictionaryWithDefault
  3
ObjectDBX Classes
 90
        0
280
     0
281
     0
  0
CLASS
  1
VISUALSTYLE
  2
AcDbVisualStyle
  3
ObjectDBX Classes
 90
     4095
280
     0
281
     0
  0
CLASS
  1
MATERIAL
  2
AcDbMaterial
  3
ObjectDBX Classes
 90
     1153
280
     0
281
     0
  0
CLASS
  1
SCALE
  2
AcDbScale
  3
ObjectDBX Classes
 90
     1153
280
     0
281
     0
  0
CLASS
  1
TABLESTYLE
  2
AcDbTableStyle
  3
ObjectDBX Classes
 90
     4095
280
     0
281
     0
  0
CLASS
  1
MLEADERSTYLE
  2
AcDbMLeaderStyle
  3
ACDB_MLEADERSTYLE_CLASS
 90
     4095
280
     0
281
     0
  0
CLASS
  1
SUN
  2
AcDbSun
  3
SCENEOE
 90
     1153
280
     0
281
     0
  0
CLASS
  1
ACDBPLACEHOLDER
  2
AcDbPlaceHolder
  3
ObjectDBX Classes
 90
        0
280
     0
281
     0
  0
CLASS
  1
LAYOUT
  2
AcDbLayout
  3
ObjectDBX Classes
 90
        0
280
     0
281
     0
  0
ENDSEC
  0
SECTION
  2
TABLES
  0
TABLE
  2
VPORT
  5
8
330
0
100
AcDbSymbolTable
 70
     1
  0
VPORT
  5
29
330
8
100
AcDbSymbolTableRecord
100
AcDbViewportTableRecord
  2
*Active
 70
     0
 10
0.0
 20
0.0
 11
1.0
 21
1.0
 12
139.7
 22
107.95
 13
0.0
 23
0.0
 14
10.0
 24
10.0
 15
10.0
 25
10.0
 16
0.0
 26
0.0
 36
1.0
 17
0.0
 27
0.0
 37
0.0
 40
215.9
 41
1.2941176471
 42
50.0
 43
0.0
 44
0.0
 50
0.0
 51
0.0
 71
     0
 72
  2000
 73
     1
 74
     3
 75
     0
 76
     0
 77
     0
 78
     0
281
     0
 65
     1
110
0.0
120
0.0
130
0.0
111
1.0
121
0.0
131
0.0
112
0.0
122
1.0
132
0.0
 79
     0
146
0.0
  0
ENDTAB
  0
TABLE
  2
LTYPE
  5
5
330
0
100
AcDbSymbolTable
 70
     6
  0
LTYPE
  5
14
330
5
100
AcDbSymbolTableRecord
100
AcDbLinetypeTableRecord
  2
ByBlock
 70
     0
  3

 72
    65
 73
     0
 40
0.0
  0
LTYPE
  5
15
330
5
100
AcDbSymbolTableRecord
100
AcDbLinetypeTableRecord
  2
ByLayer
 70
     0
  3

 72
    65
 73
     0
 40
0.0
  0
LTYPE
  5
16
330
5
100
AcDbSymbolTableRecord
100
AcDbLinetypeTableRecord
  2
Continuous
 70
     0
  3
Solid line
 72
    65
 73
     0
 40
0.0
  0
LTYPE
  5
6E
330
5
100
AcDbSymbolTableRecord
100
AcDbLinetypeTableRecord
  2
HIDDEN
 70
     0
  3
Hidden __ __ __ __ __ __ __ __ __ __ __ __ __ __
 72
    65
 73
     2
 40
1.905
 49
1.27
 74
     0
 49
-0.635
 74
     0
  0
LTYPE
  5
6F
330
5
100
AcDbSymbolTableRecord
100
AcDbLinetypeTableRecord
  2
PHANTOM
 70
     0
  3
Phantom ______  __  __  ______  __  __  ______
 72
    65
 73
     6
 40
12.7
 49
6.35
 74
     0
 49
-1.27
 74
     0
 49
1.27
 74
     0
 49
-1.27
 74
     0
 49
1.27
 74
     0
 49
-1.27
 74
     0
  0
LTYPE
  5
70
330
5
100
AcDbSymbolTableRecord
100
AcDbLinetypeTableRecord
  2
CENTER
 70
     0
  3
Center ____ _ ____ _ ____ _ ____ _ ____ _ ____
 72
    65
 73
     4
 40
10.16
 49
6.35
 74
     0
 49
-1.27
 74
     0
 49
1.27
 74
     0
 49
-1.27
 74
     0
  0
LTYPE
  5
71
330
5
100
AcDbSymbolTableRecord
100
AcDbLinetypeTableRecord
  2
CENTERX2
 70
     0
  3
Center (2x) ________  __  ________  __  _____
 72
    65
 73
     4
 40
20.32
 49
12.7
 74
     0
 49
-2.54
 74
     0
 49
2.54
 74
     0
 49
-2.54
 74
     0
  0
LTYPE
  5
72
330
5
100
AcDbSymbolTableRecord
100
AcDbLinetypeTableRecord
  2
DOT2
 70
     0
  3
Dot (.5x) ........................................
 72
    65
 73
     2
 40
0.635
 49
0.0
 74
     0
 49
-0.635
 74
     0
  0
ENDTAB
  0
TABLE
  2
LAYER
  5
2
330
0
100
AcDbSymbolTable
 70
    17
  0
LAYER
  5
10
330
2
100
AcDbSymbolTableRecord
100
AcDbLayerTableRecord
  2
0
 70
     0
 62
     7
  6
Continuous
370
    -3
390
F
  0
LAYER
  5
73
330
2
100
AcDbSymbolTableRecord
100
AcDbLayerTableRecord
  2
FORMAT
 70
     0
 62
     7
  6
Continuous
370
    -3
390
F
  0
LAYER
  5
74
330
2
100
AcDbSymbolTableRecord
100
AcDbLayerTableRecord
  2
YARDIMCI_GEOMETRI
 70
     0
 62
    -6
  6
Continuous
290
     0
370
    -3
390
F
  0
LAYER
  5
75
330
2
100
AcDbSymbolTableRecord
100
AcDbLayerTableRecord
  2
SAYFA_CERCEVESI
 70
     0
 62
     7
  6
Continuous
370
    25
390
F
  0
LAYER
  5
76
330
2
100
AcDbSymbolTableRecord
100
AcDbLayerTableRecord
  2
ANTET
 70
     0
 62
     7
  6
Continuous
370
    -3
390
F
  0
LAYER
  5
77
330
2
100
AcDbSymbolTableRecord
100
AcDbLayerTableRecord
  2
OLCU
 70
     0
 62
   150
  6
Continuous
370
    -3
390
F
  0
LAYER
  5
78
330
2
100
AcDbSymbolTableRecord
100
AcDbLayerTableRecord
  2
METIN
 70
     0
 62
    96
  6
Continuous
370
    -3
390
F
  0
LAYER
  5
79
330
2
100
AcDbSymbolTableRecord
100
AcDbLayerTableRecord
  2
BALON
 70
     0
 62
     5
  6
Continuous
370
    -3
390
F
  0
LAYER
  5
7A
330
2
100
AcDbSymbolTableRecord
100
AcDbLayerTableRecord
  2
VURGU
 70
     0
 62
     7
  6
Continuous
370
    -3
390
F
  0
LAYER
  5
7B
330
2
100
AcDbSymbolTableRecord
100
AcDbLayerTableRecord
  2
SILIK
 70
     0
 62
     7
  6
Continuous
370
    -3
390
F
  0
LAYER
  5
7C
330
2
100
AcDbSymbolTableRecord
100
AcDbLayerTableRecord
  2
MODEL
 70
     0
 62
     7
  6
Continuous
370
    -3
390
F
  0
LAYER
  5
7D
330
2
100
AcDbSymbolTableRecord
100
AcDbLayerTableRecord
  2
DETAYLANDıRMA
 70
     0
 62
   190
  6
Continuous
370
    -3
390
F
  0
LAYER
  5
7E
330
2
100
AcDbSymbolTableRecord
100
AcDbLayerTableRecord
  2
TOLERANS
 70
     0
 62
   230
  6
Continuous
370
    -3
390
F
  0
LAYER
  5
7F
330
2
100
AcDbSymbolTableRecord
100
AcDbLayerTableRecord
  2
MERKEZ_CIZGILERI
 70
     0
 62
    30
  6
Continuous
370
    -3
390
F
  0
LAYER
  5
80
330
2
100
AcDbSymbolTableRecord
100
AcDbLayerTableRecord
  2
KESIT-DETAY_CIZGILERI
 70
     0
 62
     7
  6
Continuous
370
    -3
390
F
  0
LAYER
  5
81
330
2
100
AcDbSymbolTableRecord
100
AcDbLayerTableRecord
  2
\U+041E\U+0421\U+0415\U+0412\U+042B\U+0415
 70
     0
 62
     7
  6
Continuous
370
    -3
390
F
  0
LAYER
  5
82
330
2
100
AcDbSymbolTableRecord
100
AcDbLayerTableRecord
  2
\U+0412\U+041E\U+0414\U+042F\U+041D\U+042B\U+0415_\U+0417\U+041D\U+0410\U+041A\U+0418
 70
     0
 62
    11
  6
Continuous
370
    -3
390
F
  0
ENDTAB
  0
TABLE
  2
STYLE
  5
3
330
0
100
AcDbSymbolTable
 70
     1
  0
STYLE
  5
11
330
3
100
AcDbSymbolTableRecord
100
AcDbTextStyleTableRecord
  2
Standard
 70
     0
 40
0.0
 41
1.0
 50
0.0
 71
     0
 42
3.5
  3
txt
  4

  0
ENDTAB
  0
TABLE
  2
VIEW
  5
6
330
0
100
AcDbSymbolTable
 70
     0
  0
ENDTAB
  0
TABLE
  2
UCS
  5
7
330
0
100
AcDbSymbolTable
 70
     0
  0
ENDTAB
  0
TABLE
  2
APPID
  5
9
330
0
100
AcDbSymbolTable
 70
     1
  0
APPID
  5
12
330
9
100
AcDbSymbolTableRecord
100
AcDbRegAppTableRecord
  2
ACAD
 70
     0
  0
ENDTAB
  0
TABLE
  2
DIMSTYLE
  5
A
330
0
100
AcDbSymbolTable
 70
     1
100
AcDbDimStyleTable
  0
DIMSTYLE
105
27
330
A
100
AcDbSymbolTableRecord
100
AcDbDimStyleTableRecord
  2
ISO-25
 70
     0
 41
2.5
 42
0.625
 43
3.75
 44
1.25
 73
     0
 74
     0
 77
     1
 78
     8
140
2.5
141
2.5
143
0.0393700787
147
0.625
171
     3
172
     1
178
     0
271
     2
272
     2
274
     3
278
    44
283
     0
284
     8
340
11
  0
ENDTAB
  0
TABLE
  2
BLOCK_RECORD
  5
1
330
0
100
AcDbSymbolTable
 70
     3
  0
BLOCK_RECORD
  5
1F
330
1
100
AcDbSymbolTableRecord
100
AcDbBlockTableRecord
  2
*Model_Space
340
22
  0
BLOCK_RECORD
  5
1B
330
1
100
AcDbSymbolTableRecord
100
AcDbBlockTableRecord
  2
*Paper_Space
340
1E
  0
BLOCK_RECORD
  5
23
330
1
100
AcDbSymbolTableRecord
100
AcDbBlockTableRecord
  2
*Paper_Space0
340
26
  0
BLOCK_RECORD
  5
93
330
1
100
AcDbSymbolTableRecord
100
AcDbBlockTableRecord
  2
SW_CENTERMARKSYMBOL_0
340
0
102
{BLKREFS
331
9E
102
}
  0
BLOCK_RECORD
  5
A5
330
1
100
AcDbSymbolTableRecord
100
AcDbBlockTableRecord
  2
SW_CENTERMARKSYMBOL_1
340
0
102
{BLKREFS
331
B0
102
}
  0
ENDTAB
  0
ENDSEC
  0
SECTION
  2
BLOCKS
  0
BLOCK
  5
20
330
1F
100
AcDbEntity
  8
0
100
AcDbBlockBegin
  2
*Model_Space
 70
     0
 10
0.0
 20
0.0
 30
0.0
  3
*Model_Space
  1

  0
ENDBLK
  5
21
330
1F
100
AcDbEntity
  8
0
100
AcDbBlockEnd
  0
BLOCK
  5
1C
330
1B
100
AcDbEntity
 67
     1
  8
0
100
AcDbBlockBegin
  2
*Paper_Space
 70
     0
 10
0.0
 20
0.0
 30
0.0
  3
*Paper_Space
  1

  0
ENDBLK
  5
1D
330
1B
100
AcDbEntity
 67
     1
  8
0
100
AcDbBlockEnd
  0
BLOCK
  5
24
330
23
100
AcDbEntity
  8
0
100
AcDbBlockBegin
  2
*Paper_Space0
 70
     0
 10
0.0
 20
0.0
 30
0.0
  3
*Paper_Space0
  1

  0
ENDBLK
  5
25
330
23
100
AcDbEntity
  8
0
100
AcDbBlockEnd
  0
BLOCK
  5
94
330
93
100
AcDbEntity
  8
0
100
AcDbBlockBegin
  2
SW_CENTERMARKSYMBOL_0
 70
     0
 10
0.0
 20
0.0
 30
0.0
  3
SW_CENTERMARKSYMBOL_0
  1

  0
LINE
  5
96
330
93
100
AcDbEntity
  8
FORMAT
 62
     0
100
AcDbLine
 10
0.0
 20
0.0
 30
0.0
 11
0.0
 21
2.5
 31
0.0
  0
LINE
  5
97
330
93
100
AcDbEntity
  8
FORMAT
 62
     0
100
AcDbLine
 10
0.0
 20
0.0
 30
0.0
 11
-2.5
 21
0.0
 31
0.0
  0
LINE
  5
98
330
93
100
AcDbEntity
  8
FORMAT
 62
     0
100
AcDbLine
 10
0.0
 20
0.0
 30
0.0
 11
0.0
 21
-2.5
 31
0.0
  0
LINE
  5
99
330
93
100
AcDbEntity
  8
FORMAT
 62
     0
100
AcDbLine
 10
0.0
 20
0.0
 30
0.0
 11
2.5
 21
0.0
 31
0.0
  0
LINE
  5
9A
330
93
100
AcDbEntity
  8
FORMAT
 62
     0
100
AcDbLine
 10
0.0
 20
5.0
 30
0.0
 11
0.0
 21
40.0
 31
0.0
  0
LINE
  5
9B
330
93
100
AcDbEntity
  8
FORMAT
 62
     0
100
AcDbLine
 10
-5.0
 20
0.0
 30
0.0
 11
-40.0
 21
0.0
 31
0.0
  0
LINE
  5
9C
330
93
100
AcDbEntity
  8
FORMAT
 62
     0
100
AcDbLine
 10
0.0
 20
-5.0
 30
0.0
 11
0.0
 21
-40.0
 31
0.0
  0
LINE
  5
9D
330
93
100
AcDbEntity
  8
FORMAT
 62
     0
100
AcDbLine
 10
5.0
 20
0.0
 30
0.0
 11
40.0
 21
0.0
 31
0.0
  0
ENDBLK
  5
95
330
93
100
AcDbEntity
  8
0
100
AcDbBlockEnd
  0
BLOCK
  5
A6
330
A5
100
AcDbEntity
  8
0
100
AcDbBlockBegin
  2
SW_CENTERMARKSYMBOL_1
 70
     0
 10
0.0
 20
0.0
 30
0.0
  3
SW_CENTERMARKSYMBOL_1
  1

  0
LINE
  5
A8
330
A5
100
AcDbEntity
  8
FORMAT
 62
     0
100
AcDbLine
 10
0.0
 20
0.0
 30
0.0
 11
0.0
 21
2.5
 31
0.0
  0
LINE
  5
A9
330
A5
100
AcDbEntity
  8
FORMAT
 62
     0
100
AcDbLine
 10
0.0
 20
0.0
 30
0.0
 11
-2.5
 21
0.0
 31
0.0
  0
LINE
  5
AA
330
A5
100
AcDbEntity
  8
FORMAT
 62
     0
100
AcDbLine
 10
0.0
 20
0.0
 30
0.0
 11
0.0
 21
-2.5
 31
0.0
  0
LINE
  5
AB
330
A5
100
AcDbEntity
  8
FORMAT
 62
     0
100
AcDbLine
 10
0.0
 20
0.0
 30
0.0
 11
2.5
 21
0.0
 31
0.0
  0
LINE
  5
AC
330
A5
100
AcDbEntity
  8
FORMAT
 62
     0
100
AcDbLine
 10
0.0
 20
5.0
 30
0.0
 11
0.0
 21
40.0
 31
0.0
  0
LINE
  5
AD
330
A5
100
AcDbEntity
  8
FORMAT
 62
     0
100
AcDbLine
 10
-5.0
 20
0.0
 30
0.0
 11
-40.0
 21
0.0
 31
0.0
  0
LINE
  5
AE
330
A5
100
AcDbEntity
  8
FORMAT
 62
     0
100
AcDbLine
 10
0.0
 20
-5.0
 30
0.0
 11
0.0
 21
-40.0
 31
0.0
  0
LINE
  5
AF
330
A5
100
AcDbEntity
  8
FORMAT
 62
     0
100
AcDbLine
 10
5.0
 20
0.0
 30
0.0
 11
40.0
 21
0.0
 31
0.0
  0
ENDBLK
  5
A7
330
A5
100
AcDbEntity
  8
0
100
AcDbBlockEnd
  0
ENDSEC
  0
SECTION
  2
ENTITIES
  0
LINE
  5
83
330
1F
100
AcDbEntity
  8
0
  6
Continuous
 62
     7
370
    25
100
AcDbLine
 10
91.9408852503
 20
219.9323701779
 30
0.0
 11
91.9408852503
 21
89.1176167051
 31
0.0
  0
LINE
  5
84
330
1F
100
AcDbEntity
  8
0
  6
Continuous
 62
     7
370
    25
100
AcDbLine
 10
166.9408882306
 20
89.1176167051
 30
0.0
 11
166.9408882306
 21
219.9323701779
 31
0.0
  0
LINE
  5
85
330
1F
100
AcDbEntity
  8
0
  6
Continuous
 62
     7
370
    25
100
AcDbLine
 10
166.9408882306
 20
219.9323701779
 30
0.0
 11
166.9408882306
 21
274.1176265399
 31
0.0
  0
LINE
  5
86
330
1F
100
AcDbEntity
  8
0
  6
Continuous
 62
     7
370
    25
100
AcDbLine
 10
166.9408882306
 20
-9.8823827584
 30
0.0
 11
166.9408882306
 21
89.1176167051
 31
0.0
  0
LINE
  5
87
330
1F
100
AcDbEntity
  8
0
  6
Continuous
 62
     7
370
    25
100
AcDbLine
 10
91.9408852503
 20
89.1176167051
 30
0.0
 11
91.9408852503
 21
-9.8823827584
 31
0.0
  0
LINE
  5
88
330
1F
100
AcDbEntity
  8
0
  6
Continuous
 62
     7
370
    25
100
AcDbLine
 10
91.9408852503
 20
274.1176265399
 30
0.0
 11
91.9408852503
 21
219.9323701779
 31
0.0
  0
LWPOLYLINE
  5
89
330
1F
100
AcDbEntity
  8
0
  6
Continuous
 62
     7
370
    25
100
AcDbPolyline
 90
       71
 70
   128
 43
0.0
 10
129.4408867405
 20
241.6405457179
 10
126.6889598489
 20
241.5531653086
 10
123.9591900528
 20
241.291679732
 10
121.2735556335
 20
240.8582347552
 10
118.6536800385
 20
240.2563172499
 10
116.1206558616
 20
239.4907700936
 10
113.6948781357
 20
238.5677325646
 10
111.3958804206
 20
237.4946552436
 10
109.2421671645
 20
236.2801808039
 10
107.2510851816
 20
234.9340844075
 10
105.4386606709
 20
233.4671991984
 10
103.819487457
 20
231.8913417975
 10
102.4066040561
 20
230.219193093
 10
101.2113837794
 20
228.4642237346
 10
100.2434509144
 20
226.6405749242
 10
99.510600631
 20
224.7628945033
 10
99.0187282012
 20
222.8463369529
 10
98.7717991964
 20
220.9063100735
 10
98.7717991964
 20
218.9584451835
 10
99.0187282012
 20
217.0184183041
 10
99.510600631
 20
215.1018458525
 10
100.2434509144
 20
213.2241803328
 10
101.2113837794
 20
211.4005166213
 10
102.4066040561
 20
209.6455472628
 10
103.819487457
 20
207.9733985583
 10
105.4386606709
 20
206.3975411574
 10
107.2510851816
 20
204.9306559483
 10
109.2421671645
 20
203.5845595519
 10
111.3958804206
 20
202.3700851123
 10
113.6948781357
 20
201.2970077912
 10
116.1206558616
 20
200.3739851634
 10
118.6536800385
 20
199.6084231059
 10
121.2735556335
 20
199.0064906995
 10
123.9591900528
 20
198.5730457227
 10
126.6889598489
 20
198.3115899484
 10
129.4408867405
 20
198.2241946379
 10
132.192813632
 20
198.3115899484
 10
134.9225834281
 20
198.5730457227
 10
137.6082178474
 20
199.0064906995
 10
140.2280934424
 20
199.6084231059
 10
142.7611176193
 20
200.3739851634
 10
145.1868953452
 20
201.2970077912
 10
147.4858930603
 20
202.3700851123
 10
149.6396063165
 20
203.5845595519
 10
151.6306882993
 20
204.9306559483
 10
153.44311281
 20
206.3975411574
 10
155.0622860239
 20
207.9733985583
 10
156.4751694248
 20
209.6455472628
 10
157.6703897015
 20
211.4005166213
 10
158.6383225665
 20
213.2241803328
 10
159.3711728499
 20
215.1018458525
 10
159.8630452797
 20
217.0184183041
 10
160.1099742845
 20
218.9584451835
 10
160.1099742845
 20
220.9063100735
 10
159.8630452797
 20
222.8463369529
 10
159.3711728499
 20
224.7628945033
 10
158.6383225665
 20
226.6405749242
 10
157.6703897015
 20
228.4642237346
 10
156.4751694248
 20
230.219193093
 10
155.0622860239
 20
231.8913417975
 10
153.44311281
 20
233.4671991984
 10
151.6306882993
 20
234.9340844075
 10
149.6396063165
 20
236.2801808039
 10
147.4858930603
 20
237.4946552436
 10
145.1868953452
 20
238.5677325646
 10
142.7611176193
 20
239.4907700936
 10
140.2280934424
 20
240.2563172499
 10
137.6082178474
 20
240.8582347552
 10
134.9225834281
 20
241.291679732
 10
132.192813632
 20
241.5531653086
 10
129.4408867405
 20
241.6405457179
  0
LWPOLYLINE
  5
8A
330
1F
100
AcDbEntity
  8
0
  6
Continuous
 62
     7
370
    25
100
AcDbPolyline
 90
       79
 70
   128
 43
0.0
 10
129.4408867405
 20
246.4488822142
 10
126.4233904228
 20
246.3629025142
 10
123.4254635208
 20
246.1054998557
 10
120.4665497214
 20
245.6783431689
 10
117.565836598
 20
245.0842338721
 10
114.742139195
 20
244.3270164649
 10
112.0137682453
 20
243.4115785281
 10
109.3984188781
 20
242.3438507239
 10
106.9130523399
 20
241.1308067958
 10
104.573787962
 20
239.7802549521
 10
102.3957951263
 20
238.3010017793
 10
100.3932001338
 20
236.7026138226
 10
98.578991209
 20
234.9954622905
 10
96.9649346814
 20
233.1906187455
 10
95.5614948914
 20
231.2997955005
 10
94.3777764485
 20
229.335256211
 10
93.421457176
 20
227.3097264687
 10
92.6987359569
 20
225.2363490979
 10
92.2143029318
 20
223.128579847
 10
91.9712985203
 20
221.0000830809
 10
91.9712985203
 20
218.8646572749
 10
92.2143029318
 20
216.7361605088
 10
92.6987359569
 20
214.6283912579
 10
93.421457176
 20
212.5550138871
 10
94.3777764485
 20
210.5294841449
 10
95.5614948914
 20
208.5649448554
 10
96.9649346814
 20
206.6741216103
 10
98.578991209
 20
204.8692780654
 10
100.3932001338
 20
203.1621265332
 10
102.3957951263
 20
201.5637385766
 10
104.573787962
 20
200.0844854037
 10
106.9130523399
 20
198.7339484612
 10
109.3984188781
 20
197.5208896319
 10
112.0137682453
 20
196.4531767289
 10
114.742139195
 20
195.5377387921
 10
117.565836598
 20
194.7805064837
 10
120.4665497214
 20
194.1863822858
 10
123.4254635208
 20
193.7592554013
 10
126.4233904228
 20
193.5018527428
 10
129.4408867405
 20
193.4158730428
 10
132.4583830581
 20
193.5018527428
 10
135.4563099601
 20
193.7592554013
 10
138.4152237595
 20
194.1863822858
 10
141.3159368829
 20
194.7805064837
 10
144.1396342859
 20
195.5377387921
 10
146.8680052356
 20
196.4531767289
 10
149.4833546028
 20
197.5208896319
 10
151.968721141
 20
198.7339484612
 10
154.3079855189
 20
200.0844854037
 10
156.4859783546
 20
201.5637385766
 10
158.4885733471
 20
203.1621265332
 10
160.3027822719
 20
204.8692780654
 10
161.9168387995
 20
206.6741216103
 10
163.3202785895
 20
208.5649448554
 10
164.5039970324
 20
210.5294841449
 10
165.4603163049
 20
212.5550138871
 10
166.183037524
 20
214.6283912579
 10
166.6674705491
 20
216.7361605088
 10
166.9104749606
 20
218.8646572749
 10
166.9104749606
 20
221.0000830809
 10
166.6674705491
 20
223.128579847
 10
166.183037524
 20
225.2363490979
 10
165.4603163049
 20
227.3097264687
 10
164.5039970324
 20
229.335256211
 10
163.3202785895
 20
231.2997955005
 10
161.9168387995
 20
233.1906187455
 10
160.3027822719
 20
234.9954622905
 10
158.4885733471
 20
236.7026138226
 10
156.4859783546
 20
238.3010017793
 10
154.3079855189
 20
239.7802549521
 10
151.968721141
 20
241.1308067958
 10
149.4833546028
 20
242.3438507239
 10
146.8680052356
 20
243.4115785281
 10
144.1396342859
 20
244.3270164649
 10
141.3159368829
 20
245.0842338721
 10
138.4152237595
 20
245.6783431689
 10
135.4563099601
 20
246.1054998557
 10
132.4583830581
 20
246.3629025142
 10
129.4408867405
 20
246.4488822142
  0
ELLIPSE
  5
8B
330
1F
100
AcDbEntity
  8
0
  6
Continuous
 62
     7
370
    25
100
AcDbEllipse
 10
129.4408867405
 20
89.1176172416
 30
0.0
 11
37.50000000000003
 21
0.0
 31
0.0
210
0.0
220
0.0
230
1.0
 40
0.4142135624
 41
3.141592653589828
 42
6.283185307179586
  0
LINE
  5
8C
330
1F
100
AcDbEntity
  8
0
  6
Continuous
 62
     7
370
    25
100
AcDbLine
 10
91.9408852503
 20
-9.8823827584
 30
0.0
 11
166.9408882306
 21
-9.8823827584
 31
0.0
  0
LINE
  5
8D
330
1F
100
AcDbEntity
  8
0
  6
Continuous
 62
     7
370
    25
100
AcDbLine
 10
91.9408852503
 20
274.1176265399
 30
0.0
 11
166.9408882306
 21
274.1176265399
 31
0.0
  0
LINE
  5
8E
330
1F
100
AcDbEntity
  8
0
  6
Continuous
 62
     7
370
    25
100
AcDbLine
 10
91.9408852503
 20
-142.5040902902
 30
0.0
 11
91.9408852503
 21
-273.3188512136
 31
0.0
  0
LINE
  5
8F
330
1F
100
AcDbEntity
  8
0
  6
Continuous
 62
     7
370
    25
100
AcDbLine
 10
166.9408882306
 20
-273.3188512136
 30
0.0
 11
166.9408882306
 21
-142.5040902902
 31
0.0
  0
CIRCLE
  5
90
330
1F
100
AcDbEntity
  8
0
  6
Continuous
 62
     7
370
    25
100
AcDbCircle
 10
129.4408867405
 20
-273.3188512136
 30
0.0
 40
30.69999999999999
  0
CIRCLE
  5
91
330
1F
100
AcDbEntity
  8
0
  6
Continuous
 62
     7
370
    25
100
AcDbCircle
 10
129.4408867405
 20
-273.3188512136
 30
0.0
 40
37.49999999999999
  0
LWPOLYLINE
  5
92
330
1F
100
AcDbEntity
  8
0
  6
Continuous
 62
     7
370
    25
100
AcDbPolyline
 90
       41
 70
   128
 43
0.0
 10
91.9408852503
 20
-142.5040902902
 10
91.9712985203
 20
-141.4363773872
 10
92.2143029318
 20
-139.3078806211
 10
92.6987359569
 20
-137.2001113702
 10
93.421457176
 20
-135.1267489006
 10
94.3777764485
 20
-133.1012191583
 10
95.5614948914
 20
-131.1366649677
 10
96.9649346814
 20
-129.2458417226
 10
98.578991209
 20
-127.4409981777
 10
100.3932001338
 20
-125.7338615467
 10
102.3957951263
 20
-124.13547359
 10
104.573787962
 20
-122.656205516
 10
106.9130523399
 20
-121.3056685735
 10
109.3984188781
 20
-120.0926097442
 10
112.0137682453
 20
-119.0248968412
 10
114.742139195
 20
-118.1094589044
 10
117.565836598
 20
-117.352226596
 10
120.4665497214
 20
-116.7581172992
 10
123.4254635208
 20
-116.3309755136
 10
126.4233904228
 20
-116.0735728551
 10
129.4408867405
 20
-115.9875931551
 10
132.4583830581
 20
-116.0735728551
 10
135.4563099601
 20
-116.3309755136
 10
138.4152237595
 20
-116.7581172992
 10
141.3159368829
 20
-117.352226596
 10
144.1396342859
 20
-118.1094589044
 10
146.8680052356
 20
-119.0248968412
 10
149.4833546028
 20
-120.0926097442
 10
151.968721141
 20
-121.3056685735
 10
154.3079855189
 20
-122.656205516
 10
156.4859783546
 20
-124.13547359
 10
158.4885733471
 20
-125.7338615467
 10
160.3027822719
 20
-127.4409981777
 10
161.9168387995
 20
-129.2458417226
 10
163.3202785895
 20
-131.1366649677
 10
164.5039970324
 20
-133.1012191583
 10
165.4603163049
 20
-135.1267489006
 10
166.183037524
 20
-137.2001113702
 10
166.6674705491
 20
-139.3078806211
 10
166.9104749606
 20
-141.4363773872
 10
166.9408882306
 20
-142.5040902902
  0
INSERT
  5
9E
330
1F
100
AcDbEntity
  8
FORMAT
100
AcDbBlockReference
  2
SW_CENTERMARKSYMBOL_0
 10
129.4408867405
 20
-273.3188512136
 30
0.0
  0
LINE
  5
9F
330
1F
100
AcDbEntity
  8
0
  6
Continuous
 62
     7
370
    25
100
AcDbLine
 10
166.9408882306
 20
412.9557081572
 30
0.0
 11
166.9408882306
 21
543.7704690806
 31
0.0
  0
LINE
  5
A0
330
1F
100
AcDbEntity
  8
0
  6
Continuous
 62
     7
370
    25
100
AcDbLine
 10
91.9408852503
 20
543.7704690806
 30
0.0
 11
91.9408852503
 21
412.9557081572
 31
0.0
  0
CIRCLE
  5
A1
330
1F
100
AcDbEntity
  8
0
  6
Continuous
 62
     7
370
    25
100
AcDbCircle
 10
129.4408867405
 20
543.7704690806
 30
0.0
 40
30.69999999999999
  0
CIRCLE
  5
A2
330
1F
100
AcDbEntity
  8
0
  6
Continuous
 62
     7
370
    25
100
AcDbCircle
 10
129.4408867405
 20
543.7704690806
 30
0.0
 40
37.49999999999999
  0
LWPOLYLINE
  5
A3
330
1F
100
AcDbEntity
  8
0
  6
Continuous
 62
     7
370
    25
100
AcDbPolyline
 90
       79
 70
   128
 43
0.0
 10
129.4408867405
 20
439.4722201936
 10
126.4233904228
 20
439.3862330429
 10
123.4254635208
 20
439.128837835
 10
120.4665497214
 20
438.7016960494
 10
117.565836598
 20
438.1075867526
 10
114.742139195
 20
437.3503544442
 10
112.0137682453
 20
436.4349165074
 10
109.3984188781
 20
435.3672036044
 10
106.9130523399
 20
434.1541447751
 10
104.573787962
 20
432.803600382
 10
102.3957951263
 20
431.3243397586
 10
100.3932001338
 20
429.7259518019
 10
98.578991209
 20
428.0188077204
 10
96.9649346814
 20
426.2139641754
 10
95.5614948914
 20
424.3231409303
 10
94.3777764485
 20
422.3585941903
 10
93.421457176
 20
420.3330718986
 10
92.6987359569
 20
418.2597019784
 10
92.2143029318
 20
416.1519327275
 10
91.9712985203
 20
414.0234210603
 10
91.9712985203
 20
411.8879952542
 10
92.2143029318
 20
409.7594984881
 10
92.6987359569
 20
407.6517292372
 10
93.421457176
 20
405.5783667676
 10
94.3777764485
 20
403.5528370253
 10
95.5614948914
 20
401.5882828347
 10
96.9649346814
 20
399.6974595896
 10
98.578991209
 20
397.8926160447
 10
100.3932001338
 20
396.1854794137
 10
102.3957951263
 20
394.5870914571
 10
104.573787962
 20
393.107823383
 10
106.9130523399
 20
391.7572864405
 10
109.3984188781
 20
390.5442276112
 10
112.0137682453
 20
389.4765147082
 10
114.742139195
 20
388.5610767714
 10
117.565836598
 20
387.803844463
 10
120.4665497214
 20
387.2097351662
 10
123.4254635208
 20
386.7825933806
 10
126.4233904228
 20
386.5251907222
 10
129.4408867405
 20
386.4392110221
 10
132.4583830581
 20
386.5251907222
 10
135.4563099601
 20
386.7825933806
 10
138.4152237595
 20
387.2097351662
 10
141.3159368829
 20
387.803844463
 10
144.1396342859
 20
388.5610767714
 10
146.8680052356
 20
389.4765147082
 10
149.4833546028
 20
390.5442276112
 10
151.968721141
 20
391.7572864405
 10
154.3079855189
 20
393.107823383
 10
156.4859783546
 20
394.5870914571
 10
158.4885733471
 20
396.1854794137
 10
160.3027822719
 20
397.8926160447
 10
161.9168387995
 20
399.6974595896
 10
163.3202785895
 20
401.5882828347
 10
164.5039970324
 20
403.5528370253
 10
165.4603163049
 20
405.5783667676
 10
166.183037524
 20
407.6517292372
 10
166.6674705491
 20
409.7594984881
 10
166.9104749606
 20
411.8879952542
 10
166.9104749606
 20
414.0234210603
 10
166.6674705491
 20
416.1519327275
 10
166.183037524
 20
418.2597019784
 10
165.4603163049
 20
420.3330718986
 10
164.5039970324
 20
422.3585941903
 10
163.3202785895
 20
424.3231409303
 10
161.9168387995
 20
426.2139641754
 10
160.3027822719
 20
428.0188077204
 10
158.4885733471
 20
429.7259518019
 10
156.4859783546
 20
431.3243397586
 10
154.3079855189
 20
432.803600382
 10
151.968721141
 20
434.1541447751
 10
149.4833546028
 20
435.3672036044
 10
146.8680052356
 20
436.4349165074
 10
144.1396342859
 20
437.3503544442
 10
141.3159368829
 20
438.1075867526
 10
138.4152237595
 20
438.7016960494
 10
135.4563099601
 20
439.128837835
 10
132.4583830581
 20
439.3862330429
 10
129.4408867405
 20
439.4722201936
  0
LWPOLYLINE
  5
A4
330
1F
100
AcDbEntity
  8
0
  6
Continuous
 62
     7
370
    25
100
AcDbPolyline
 90
       71
 70
   128
 43
0.0
 10
129.4408867405
 20
434.6638911478
 10
126.6889598489
 20
434.576503288
 10
123.9591900528
 20
434.3150326125
 10
121.2735556335
 20
433.8815950863
 10
118.6536800385
 20
433.2796701304
 10
116.1206558616
 20
432.5141080729
 10
113.6948781357
 20
431.5910705439
 10
111.3958804206
 20
430.5180006735
 10
109.2421671645
 20
429.3035262338
 10
107.2510851816
 20
427.9574223868
 10
105.4386606709
 20
426.4905446283
 10
103.819487457
 20
424.9146872274
 10
102.4066040561
 20
423.2425385229
 10
101.2113837794
 20
421.4875691644
 10
100.2434509144
 20
419.6639129035
 10
99.510600631
 20
417.7862324826
 10
99.0187282012
 20
415.8696749322
 10
98.7717991964
 20
413.9296480529
 10
98.7717991964
 20
411.9817831628
 10
99.0187282012
 20
410.0417562835
 10
99.510600631
 20
408.1251838319
 10
100.2434509144
 20
406.2475183121
 10
101.2113837794
 20
404.4238546006
 10
102.4066040561
 20
402.6688852422
 10
103.819487457
 20
400.9967514388
 10
105.4386606709
 20
399.4208940379
 10
107.2510851816
 20
397.9540088288
 10
109.2421671645
 20
396.6079124324
 10
111.3958804206
 20
395.3934230916
 10
113.6948781357
 20
394.3203606717
 10
116.1206558616
 20
393.3973231427
 10
118.6536800385
 20
392.6317610852
 10
121.2735556335
 20
392.0298435799
 10
123.9591900528
 20
391.5963986031
 10
126.6889598489
 20
391.3349279277
 10
129.4408867405
 20
391.2475326173
 10
132.192813632
 20
391.3349279277
 10
134.9225834281
 20
391.5963986031
 10
137.6082178474
 20
392.0298435799
 10
140.2280934424
 20
392.6317610852
 10
142.7611176193
 20
393.3973231427
 10
145.1868953452
 20
394.3203606717
 10
147.4858930603
 20
395.3934230916
 10
149.6396063165
 20
396.6079124324
 10
151.6306882993
 20
397.9540088288
 10
153.44311281
 20
399.4208940379
 10
155.0622860239
 20
400.9967514388
 10
156.4751694248
 20
402.6688852422
 10
157.6703897015
 20
404.4238546006
 10
158.6383225665
 20
406.2475183121
 10
159.3711728499
 20
408.1251838319
 10
159.8630452797
 20
410.0417562835
 10
160.1099742845
 20
411.9817831628
 10
160.1099742845
 20
413.9296480529
 10
159.8630452797
 20
415.8696749322
 10
159.3711728499
 20
417.7862324826
 10
158.6383225665
 20
419.6639129035
 10
157.6703897015
 20
421.4875691644
 10
156.4751694248
 20
423.2425385229
 10
155.0622860239
 20
424.9146872274
 10
153.44311281
 20
426.4905446283
 10
151.6306882993
 20
427.9574223868
 10
149.6396063165
 20
429.3035262338
 10
147.4858930603
 20
430.5180006735
 10
145.1868953452
 20
431.5910705439
 10
142.7611176193
 20
432.5141080729
 10
140.2280934424
 20
433.2796701304
 10
137.6082178474
 20
433.8815950863
 10
134.9225834281
 20
434.3150326125
 10
132.192813632
 20
434.576503288
 10
129.4408867405
 20
434.6638911478
  0
INSERT
  5
B0
330
1F
100
AcDbEntity
  8
FORMAT
100
AcDbBlockReference
  2
SW_CENTERMARKSYMBOL_1
 10
129.4408867405
 20
543.7704690806
 30
0.0
  0
LINE
  5
B1
330
1F
100
AcDbEntity
  8
0
  6
Continuous
 62
     7
370
    25
100
AcDbLine
 10
530.5693437752
 20
246.4488822142
 30
0.0
 11
463.7710963782
 21
179.6506273667
 31
0.0
  0
LINE
  5
B2
330
1F
100
AcDbEntity
  8
0
  6
Continuous
 62
     7
370
    25
100
AcDbLine
 10
463.7710963782
 20
73.5846090237
 30
0.0
 11
583.6023529467
 21
193.4158730428
 31
0.0
  0
LINE
  5
B3
330
1F
100
AcDbEntity
  8
0
  6
Continuous
 62
     7
370
    25
100
AcDbLine
 10
463.7710963782
 20
179.6506273667
 30
0.0
 11
463.7710963782
 21
274.1176265399
 31
0.0
  0
LINE
  5
B4
330
1F
100
AcDbEntity
  8
0
  6
Continuous
 62
     7
370
    25
100
AcDbLine
 10
463.7710963782
 20
-9.8823827584
 30
0.0
 11
463.7710963782
 21
73.5846090237
 31
0.0
  0
LINE
  5
B5
330
1F
100
AcDbEntity
  8
0
  6
Continuous
 62
     7
370
    25
100
AcDbLine
 10
388.771093398
 20
274.1176265399
 30
0.0
 11
388.771093398
 21
-9.8823827584
 31
0.0
  0
LWPOLYLINE
  5
B6
330
1F
100
AcDbEntity
  8
0
  6
Continuous
 62
     7
370
    25
100
AcDbPolyline
 90
       21
 70
   128
 43
0.0
 10
463.7710963782
 20
73.5846090237
 10
463.6554931697
 20
73.6324939052
 10
463.3094062504
 20
73.7758430759
 10
462.7349664863
 20
74.0137848179
 10
461.9357129034
 20
74.3448513667
 10
460.9165777859
 20
74.7669863622
 10
459.6838382479
 20
75.2776044528
 10
458.2451013323
 20
75.8735465924
 10
456.6092313674
 20
76.5511470954
 10
454.7863183018
 20
77.306226186
 10
452.7875994738
 20
78.1341198007
 10
450.6253962811
 20
79.0297317426
 10
448.3130415377
 20
79.9875411312
 10
445.8647919294
 20
81.0016396562
 10
443.2957386073
 20
82.0657762806
 10
440.6217233684
 20
83.1733944933
 10
437.8592324849
 20
84.3176546614
 10
435.0252961215
 20
85.4915085356
 10
432.1373872865
 20
86.6877216021
 10
429.213311005
 20
87.8989103357
 10
426.2710948881
 20
89.1176167051
  0
LWPOLYLINE
  5
B7
330
1F
100
AcDbEntity
  8
0
  6
Continuous
 62
     7
370
    25
100
AcDbPolyline
 90
       33
 70
   128
 43
0.0
 10
426.2710948881
 20
89.1176167051
 10
428.1403156404
 20
93.6303141634
 10
430.004889093
 20
98.1317910473
 10
431.8601800535
 20
102.6108640353
 10
433.7015752156
 20
107.0563870589
 10
435.5244971287
 20
111.4573034565
 10
437.3244139772
 20
115.8026832263
 10
439.0968502905
 20
120.081730477
 10
440.8373999816
 20
124.2837834279
 10
442.541734263
 20
128.398411266
 10
444.205618411
 20
132.4153917949
 10
445.8249145594
 20
136.3247114341
 10
447.395597532
 20
140.1166695277
 10
448.9137594994
 20
143.7818485419
 10
450.3756304678
 20
147.3111140649
 10
451.7775726911
 20
150.6957042138
 10
453.1161011603
 20
153.9271998326
 10
454.3878891912
 20
156.9975691954
 10
455.5897758749
 20
159.8991680066
 10
456.7187698033
 20
162.6248139064
 10
457.7720676955
 20
165.1676970641
 10
458.7470469471
 20
167.5214993874
 10
459.6412879821
 20
169.6803945224
 10
460.4525630769
 20
171.6389882485
 10
461.1788605746
 20
173.3924227874
 10
461.8183699843
 20
174.9363320987
 10
462.3695043322
 20
176.266886584
 10
462.8308927115
 20
177.3807781855
 10
463.2013840076
 20
178.2752203862
 10
463.4800655242
 20
178.9480227153
 10
463.6662369069
 20
179.3974715392
 10
463.7594399449
 20
179.6224939744
 10
463.7710963782
 20
179.6506273667
  0
LWPOLYLINE
  5
B8
330
1F
100
AcDbEntity
  8
0
  6
Continuous
 62
     7
370
    25
100
AcDbPolyline
 90
       41
 70
   128
 43
0.0
 10
530.5693437752
 20
246.4488822142
 10
530.6553309258
 20
246.3629025142
 10
530.9127261337
 20
246.1054998557
 10
531.3398679193
 20
245.6783431689
 10
531.9339772161
 20
245.0842338721
 10
532.6912095245
 20
244.3270164649
 10
533.6066474613
 20
243.4115785281
 10
534.6743603643
 20
242.3438507239
 10
535.8874191936
 20
241.1308067958
 10
537.2379635867
 20
239.7802549521
 10
538.7172242102
 20
238.3010017793
 10
540.3156121668
 20
236.7026138226
 10
542.0227562484
 20
234.9954622905
 10
543.8275997933
 20
233.1906187455
 10
545.7184230384
 20
231.2997955005
 10
547.6829697784
 20
229.335256211
 10
549.7084920701
 20
227.3097264687
 10
551.7818619903
 20
225.2363490979
 10
553.8896312412
 20
223.128579847
 10
556.0181429085
 20
221.0000830809
 10
558.1535687145
 20
218.8646572749
 10
560.2820654806
 20
216.7361605088
 10
562.3898347315
 20
214.6283912579
 10
564.4631972011
 20
212.5550138871
 10
566.4887269434
 20
210.5294841449
 10
568.453281134
 20
208.5649448554
 10
570.3441043791
 20
206.6741216103
 10
572.148947924
 20
204.8692780654
 10
573.856084555
 20
203.1621265332
 10
575.4544725117
 20
201.5637385766
 10
576.9337405857
 20
200.0844854037
 10
578.2842775282
 20
198.7339484612
 10
579.4973363575
 20
197.5208896319
 10
580.5650492605
 20
196.4531767289
 10
581.4804871973
 20
195.5377387921
 10
582.2377195057
 20
194.7805064837
 10
582.8318288025
 20
194.1863822858
 10
583.2589705881
 20
193.7592554013
 10
583.5163732466
 20
193.5018527428
 10
583.6023529467
 20
193.4158730428
 10
583.6023529467
 20
193.4158730428
  0
LINE
  5
B9
330
1F
100
AcDbEntity
  8
0
  6
Continuous
 62
     7
370
    25
100
AcDbLine
 10
426.2710948881
 20
-9.8823827584
 30
0.0
 11
463.7710963782
 21
-9.8823827584
 31
0.0
  0
LINE
  5
BA
330
1F
100
AcDbEntity
  8
0
  6
Continuous
 62
     7
370
    25
100
AcDbLine
 10
388.771093398
 20
-9.8823827584
 30
0.0
 11
426.2710948881
 21
-9.8823827584
 31
0.0
  0
LINE
  5
BB
330
1F
100
AcDbEntity
  8
0
  6
Continuous
 62
     7
370
    25
100
AcDbLine
 10
426.2710948881
 20
274.1176265399
 30
0.0
 11
463.7710963782
 21
274.1176265399
 31
0.0
  0
LINE
  5
BC
330
1F
100
AcDbEntity
  8
0
  6
Continuous
 62
     7
370
    25
100
AcDbLine
 10
388.771093398
 20
274.1176265399
 30
0.0
 11
426.2710948881
 21
274.1176265399
 31
0.0
  0
LINE
  5
BD
330
1F
100
AcDbEntity
  8
0
  6
Continuous
 62
     7
370
    25
100
AcDbLine
 10
-111.0842162715
 20
-9.8823827584
 30
0.0
 11
-111.0842162715
 21
274.1176265399
 31
0.0
  0
LINE
  5
BE
330
1F
100
AcDbEntity
  8
0
  6
Continuous
 62
     7
370
    25
100
AcDbLine
 10
-186.0842192518
 20
73.5846090237
 30
0.0
 11
-186.0842192518
 21
-9.8823827584
 31
0.0
  0
LINE
  5
BF
330
1F
100
AcDbEntity
  8
0
  6
Continuous
 62
     7
370
    25
100
AcDbLine
 10
-186.0842192518
 20
274.1176265399
 30
0.0
 11
-186.0842192518
 21
179.6506273667
 31
0.0
  0
LINE
  5
C0
330
1F
100
AcDbEntity
  8
0
  6
Continuous
 62
     7
370
    25
100
AcDbLine
 10
-305.9154758202
 20
193.4158730428
 30
0.0
 11
-186.0842192518
 21
73.5846090237
 31
0.0
  0
LINE
  5
C1
330
1F
100
AcDbEntity
  8
0
  6
Continuous
 62
     7
370
    25
100
AcDbLine
 10
-186.0842192518
 20
179.6506273667
 30
0.0
 11
-252.8824666487
 21
246.4488822142
 31
0.0
  0
LINE
  5
C2
330
1F
100
AcDbEntity
  8
0
  6
Continuous
 62
     7
370
    25
100
AcDbLine
 10
-186.0842192518
 20
-9.8823827584
 30
0.0
 11
-111.0842162715
 21
-9.8823827584
 31
0.0
  0
LINE
  5
C3
330
1F
100
AcDbEntity
  8
0
  6
Continuous
 62
     7
370
    25
100
AcDbLine
 10
-186.0842192518
 20
274.1176265399
 30
0.0
 11
-111.0842162715
 21
274.1176265399
 31
0.0
  0
LWPOLYLINE
  5
C4
330
1F
100
AcDbEntity
  8
0
  6
Continuous
 62
     7
370
    25
100
AcDbPolyline
 90
       33
 70
   128
 43
0.0
 10
-186.0842192518
 20
179.6506273667
 10
-186.0725628184
 20
179.6224939744
 10
-185.9793597805
 20
179.3974715392
 10
-185.7931883978
 20
178.9480227153
 10
-185.5145068811
 20
178.2752203862
 10
-185.1440155851
 20
177.3807781855
 10
-184.6826272058
 20
176.266886584
 10
-184.1314928578
 20
174.9363320987
 10
-183.4919834482
 20
173.3924227874
 10
-182.7656859504
 20
171.6389882485
 10
-181.9544108557
 20
169.6803945224
 10
-181.0601698207
 20
167.5214993874
 10
-180.0851905691
 20
165.1676970641
 10
-179.0318926769
 20
162.6248139064
 10
-177.9028987484
 20
159.8991680066
 10
-176.7010120647
 20
156.9975691954
 10
-175.4292240339
 20
153.9271998326
 10
-174.0906955646
 20
150.6957042138
 10
-172.6887533413
 20
147.3111140649
 10
-171.226882373
 20
143.7818485419
 10
-169.7087204056
 20
140.1166695277
 10
-168.1380374329
 20
136.3247114341
 10
-166.5187412845
 20
132.4153917949
 10
-164.8548571365
 20
128.398411266
 10
-163.1505228551
 20
124.2837834279
 10
-161.4099731641
 20
120.081730477
 10
-159.6375368508
 20
115.8026832263
 10
-157.8376200022
 20
111.4573034565
 10
-156.0146980891
 20
107.0563870589
 10
-154.1733029271
 20
102.6108640353
 10
-152.3180119665
 20
98.1317910473
 10
-150.4534385139
 20
93.6303141634
 10
-148.5842177617
 20
89.1176167051
  0
LWPOLYLINE
  5
C5
330
1F
100
AcDbEntity
  8
0
  6
Continuous
 62
     7
370
    25
100
AcDbPolyline
 90
       21
 70
   128
 43
0.0
 10
-148.5842177617
 20
89.1176167051
 10
-151.5264338786
 20
87.8989103357
 10
-154.4505101601
 20
86.6877216021
 10
-157.338418995
 20
85.4915085356
 10
-160.1723553585
 20
84.3176546614
 10
-162.934846242
 20
83.1733944933
 10
-165.6088614809
 20
82.0657762806
 10
-168.1779148029
 20
81.0016396562
 10
-170.6261644112
 20
79.9875411312
 10
-172.9385191547
 20
79.0297317426
 10
-175.1007223474
 20
78.1341198007
 10
-177.0994411754
 20
77.306226186
 10
-178.9223542409
 20
76.5511470954
 10
-180.5582242059
 20
75.8735465924
 10
-181.9969611215
 20
75.2776044528
 10
-183.2297006594
 20
74.7669863622
 10
-184.2488357769
 20
74.3448513667
 10
-185.0480893599
 20
74.0137848179
 10
-185.6225291239
 20
73.7758430759
 10
-185.9686160432
 20
73.6324939052
 10
-186.0842192518
 20
73.5846090237
  0
LWPOLYLINE
  5
C6
330
1F
100
AcDbEntity
  8
0
  6
Continuous
 62
     7
370
    25
100
AcDbPolyline
 90
       40
 70
   128
 43
0.0
 10
-305.9154758202
 20
193.4158730428
 10
-305.8294961201
 20
193.5018527428
 10
-305.5720934617
 20
193.7592554013
 10
-305.144951676
 20
194.1863822858
 10
-304.5508423792
 20
194.7805064837
 10
-303.7936100708
 20
195.5377387921
 10
-302.8781721341
 20
196.4531767289
 10
-301.810459231
 20
197.5208896319
 10
-300.5974004017
 20
198.7339484612
 10
-299.2468634593
 20
200.0844854037
 10
-297.7675953852
 20
201.5637385766
 10
-296.1692074286
 20
203.1621265332
 10
-294.4620707976
 20
204.8692780654
 10
-292.6572272526
 20
206.6741216103
 10
-290.7664040076
 20
208.5649448554
 10
-288.8018498169
 20
210.5294841449
 10
-286.7763200747
 20
212.5550138871
 10
-284.702957605
 20
214.6283912579
 10
-282.5951883542
 20
216.7361605088
 10
-280.4666915881
 20
218.8646572749
 10
-278.331265782
 20
221.0000830809
 10
-276.2027541148
 20
223.128579847
 10
-274.0949848639
 20
225.2363490979
 10
-272.0216149436
 20
227.3097264687
 10
-269.996092652
 20
229.335256211
 10
-268.0315459119
 20
231.2997955005
 10
-266.1407226669
 20
233.1906187455
 10
-264.3358791219
 20
234.9954622905
 10
-262.6287350403
 20
236.7026138226
 10
-261.0303470837
 20
238.3010017793
 10
-259.5510864603
 20
239.7802549521
 10
-258.2005420672
 20
241.1308067958
 10
-256.9874832379
 20
242.3438507239
 10
-255.9197703349
 20
243.4115785281
 10
-255.0043323981
 20
244.3270164649
 10
-254.2471000897
 20
245.0842338721
 10
-253.6529907929
 20
245.6783431689
 10
-253.2258490073
 20
246.1054998557
 10
-252.9684537994
 20
246.3629025142
 10
-252.8824666487
 20
246.4488822142
  0
LINE
  5
C7
330
1F
100
AcDbEntity
  8
0
  6
Continuous
 62
     7
370
    25
100
AcDbLine
 10
324.520910021
 20
-124.1869960058
 30
0.0
 11
411.9968653269
 21
-275.6997915498
 31
0.0
  0
LINE
  5
C8
330
1F
100
AcDbEntity
  8
0
  6
Continuous
 62
     7
370
    25
100
AcDbLine
 10
455.8367738159
 20
-201.6327410738
 30
0.0
 11
389.4728176685
 21
-86.6870006144
 31
0.0
  0
LINE
  5
C9
330
1F
100
AcDbEntity
  8
0
  6
Continuous
 62
     7
370
    25
100
AcDbLine
 10
486.9968661507
 20
-346.4892377174
 30
0.0
 11
486.9968661507
 21
-114.5916395494
 31
0.0
  0
LINE
  5
CA
330
1F
100
AcDbEntity
  8
0
  6
Continuous
 62
     7
370
    25
100
AcDbLine
 10
411.9968653269
 20
-274.6201712584
 30
0.0
 11
411.9968653269
 21
-346.4892377174
 31
0.0
  0
LINE
  5
CB
330
1F
100
AcDbEntity
  8
0
  6
Continuous
 62
     7
370
    25
100
AcDbLine
 10
411.9968653269
 20
-114.5916395494
 30
0.0
 11
411.9968653269
 21
-125.6998000894
 31
0.0
  0
ELLIPSE
  5
CC
330
1F
100
AcDbEntity
  8
0
  6
Continuous
 62
     7
370
    25
100
AcDbEllipse
 10
449.4968657388
 20
-265.6516973407
 30
0.0
 11
37.36480351170655
 21
10.01186895175641
 31
0.0
210
0.0
220
0.0
230
1.0
 40
0.3177652438
 41
0.7004580896382465
 42
3.056652579830587
  0
ELLIPSE
  5
CD
330
1F
100
AcDbEntity
  8
0
  6
Continuous
 62
     7
370
    25
100
AcDbEllipse
 10
449.4968657388
 20
-265.6516973407
 30
0.0
 11
-24.17129947173891
 21
90.20851748421032
 31
0.0
210
0.0
220
0.0
230
1.0
 40
0.3178248929
 41
4.797329054143886
 42
5.412847070022955
  0
LWPOLYLINE
  5
CE
330
1F
100
AcDbEntity
  8
0
  6
Continuous
 62
     7
370
    25
100
AcDbPolyline
 90
       79
 70
   128
 43
0.0
 10
375.7468666849
 20
-94.6093302848
 10
373.5523724791
 20
-95.8761901508
 10
371.2505121403
 20
-97.2050660794
 10
368.8562092746
 20
-98.5873365519
 10
366.3849966423
 20
-100.0140160769
 10
363.8528969604
 20
-101.4758544264
 10
361.2763349874
 20
-102.9633934714
 10
358.6720166806
 20
-104.4669882813
 10
356.0568350235
 20
-105.9768493224
 10
353.4477462203
 20
-107.4832295293
 10
350.8616774988
 20
-108.9763254391
 10
348.3153980365
 20
-110.4464733903
 10
345.8254254468
 20
-111.8841365917
 10
343.4078980213
 20
-113.2799849709
 10
341.0785022902
 20
-114.6249674154
 10
338.8523426303
 20
-115.910356644
 10
336.7438622399
 20
-117.1278313352
 10
334.7667272344
 20
-118.269488299
 10
332.9337634269
 20
-119.3279154829
 10
331.2568483259
 20
-120.2962482511
 10
329.7468742578
 20
-121.1682210974
 10
328.4136298279
 20
-121.9381691756
 10
327.2657577745
 20
-122.6011013081
 10
326.3107101873
 20
-123.1527258475
 10
325.5546642136
 20
-123.5894506858
 10
325.0025299614
 20
-123.908439534
 10
324.6578978153
 20
-124.1076423495
 10
324.5229910216
 20
-124.1857618867
 10
324.5987025666
 20
-124.1422932466
 10
324.8845201027
 20
-123.9775064013
 10
325.3785931198
 20
-123.6924682512
 10
326.0777289942
 20
-123.2890449182
 10
326.9773864029
 20
-122.7698447241
 10
328.0717306415
 20
-122.1382349279
 10
329.3536678687
 20
-121.3983097976
 10
330.8148793503
 20
-120.5548708493
 10
332.4458945576
 20
-119.6133968177
 10
334.2361277169
 20
-118.5799617274
 10
336.1739709935
 20
-117.4613027732
 10
338.246866273
 20
-116.2646572094
 10
340.4413552103
 20
-114.9977943021
 10
342.7432208176
 20
-113.6689214148
 10
345.1375236832
 20
-112.2866752771
 10
347.6087363155
 20
-110.8599835848
 10
350.1408359975
 20
-109.3981330678
 10
352.7173979704
 20
-107.9105940228
 10
355.3217162772
 20
-106.4070113803
 10
357.9368979343
 20
-104.8971381718
 10
360.5459814692
 20
-103.390767091
 10
363.132055459
 20
-101.8976742226
 10
365.6783349213
 20
-100.4275262713
 10
368.1683022427
 20
-98.9898600286
 10
370.5858296682
 20
-97.5940116494
 10
372.9152253993
 20
-96.2490292049
 10
375.1413903275
 20
-94.9636430177
 10
377.2498759863
 20
-93.7461713678
 10
379.2270057234
 20
-92.6045113627
 10
381.0599695309
 20
-91.5460841787
 10
382.7368740952
 20
-90.5777453278
 10
384.2468481634
 20
-89.7057724815
 10
385.5801031299
 20
-88.9358304861
 10
386.7279751833
 20
-88.2728983535
 10
387.6830280389
 20
-87.7212768555
 10
388.4390687442
 20
-87.2845489759
 10
388.991197728
 20
-86.9655570862
 10
389.3358298741
 20
-86.7663542707
 10
389.4707366679
 20
-86.6882347336
 10
389.3950303912
 20
-86.731706415
 10
389.1092128551
 20
-86.8964932603
 10
388.6151345697
 20
-87.181528369
 10
387.9160039637
 20
-87.584942576
 10
387.016346555
 20
-88.1041549375
 10
385.9220023163
 20
-88.7357525663
 10
384.6400650891
 20
-89.4756776966
 10
383.1788536075
 20
-90.3191288123
 10
381.5478384002
 20
-91.2606150113
 10
379.7576052409
 20
-92.2940257669
 10
377.8197566959
 20
-93.4126816797
 10
375.7468666849
 20
-94.6093302848
  0
LWPOLYLINE
  5
CF
330
1F
100
AcDbEntity
  8
0
  6
Continuous
 62
     7
370
    25
100
AcDbPolyline
 90
       71
 70
   128
 43
0.0
 10
372.3468646104
 20
-96.5727538527
 10
370.3391658958
 20
-97.7317791629
 10
368.2240394742
 20
-98.9528625202
 10
366.0185225505
 20
-100.2261439399
 10
363.7403655334
 20
-101.5413697839
 10
361.4079128387
 20
-102.8879554863
 10
359.039942863
 20
-104.2550779429
 10
356.6555310066
 20
-105.6317180883
 10
354.2738626467
 20
-107.0067871276
 10
351.9141159163
 20
-108.3692124631
 10
349.5952990441
 20
-109.7080376884
 10
347.3360712304
 20
-111.0124712605
 10
345.1546241084
 20
-112.2720157728
 10
343.0685250116
 20
-113.4765280321
 10
341.0945734103
 20
-114.6163019514
 10
339.2486494469
 20
-115.6821803412
 10
337.5456322758
 20
-116.6655655549
 10
335.99922094
 20
-117.5585472586
 10
334.6218724674
 20
-118.3539320889
 10
333.4246714791
 20
-119.04531895
 10
332.4172564326
 20
-119.6271416066
 10
331.6077498157
 20
-120.0947089957
 10
331.0026567313
 20
-120.4442637983
 10
330.6068543598
 20
-120.6729885283
 10
330.4235366422
 20
-120.7790496537
 10
330.4541655473
 20
-120.7615770796
 10
330.6984987307
 20
-120.6207211909
 10
331.1545724126
 20
-120.3576140856
 10
331.8187040122
 20
-119.9743680694
 10
332.6855711727
 20
-119.4740908724
 10
333.7481689563
 20
-118.8607765488
 10
334.9979534064
 20
-118.1393929331
 10
336.4248652558
 20
-117.3157462981
 10
338.0174036832
 20
-116.3964509512
 10
339.7627547294
 20
-115.3889037687
 10
341.6468630791
 20
-114.3012427676
 10
343.654567062
 20
-113.1422083313
 10
345.7696934836
 20
-111.9211493089
 10
347.9752156757
 20
-110.6478709305
 10
350.2533674244
 20
-109.3326298778
 10
352.5858201192
 20
-107.986032008
 10
354.9537900948
 20
-106.6189217187
 10
357.3381966828
 20
-105.2422785319
 10
359.7198755795
 20
-103.8672155753
 10
362.0796170416
 20
-102.5047871985
 10
364.398439182
 20
-101.1659650146
 10
366.6576669958
 20
-99.8615314425
 10
368.839103581
 20
-98.6019808475
 10
370.9252026778
 20
-97.3974685882
 10
372.8991595475
 20
-96.2576855428
 10
374.7450729742
 20
-95.1918132377
 10
376.448100682
 20
-94.2084219393
 10
377.9945120178
 20
-93.3154402357
 10
379.3718604904
 20
-92.5200554054
 10
380.5690614787
 20
-91.8286685442
 10
381.5764659886
 20
-91.2468519723
 10
382.3859831421
 20
-90.7792784986
 10
382.9910709582
 20
-90.429732822
 10
383.3868733296
 20
-90.201008092
 10
383.5702015839
 20
-90.0949530493
 10
383.5395726789
 20
-90.1124256234
 10
383.2952342272
 20
-90.2532784707
 10
382.8391658136
 20
-90.5163886174
 10
382.1750236773
 20
-90.8996285509
 10
381.3081617851
 20
-91.3999087892
 10
380.2455640015
 20
-92.0132109454
 10
378.9957795514
 20
-92.7346067285
 10
377.5688729703
 20
-93.5582685722
 10
375.9763292747
 20
-94.4775608778
 10
374.2309782285
 20
-95.4850837255
 10
372.3468646104
 20
-96.5727538527
  0
LWPOLYLINE
  5
D0
330
1F
100
AcDbEntity
  8
0
  6
Continuous
 62
     7
370
    25
100
AcDbPolyline
 90
       79
 70
   128
 43
0.0
 10
422.9803603906
 20
-361.7968904224
 10
420.9326531215
 20
-360.5154981957
 10
419.070197386
 20
-359.1431391646
 10
417.4050692439
 20
-357.6887159521
 10
415.9480678374
 20
-356.1616592366
 10
414.7086436095
 20
-354.5718741482
 10
413.6948340958
 20
-352.9296697475
 10
412.9132142047
 20
-351.2456968675
 10
412.3688534118
 20
-349.5308762615
 10
412.0652828329
 20
-347.7963294126
 10
412.0044701989
 20
-346.0533047805
 10
412.1868093193
 20
-344.3131078503
 10
412.6111187654
 20
-342.5870243382
 10
413.2746471383
 20
-340.8862487198
 10
414.1730901909
 20
-339.2218089565
 10
415.3006204629
 20
-337.6045022465
 10
416.6499281104
 20
-336.0448167103
 10
418.2122597597
 20
-334.5528663811
 10
419.9774843621
 20
-333.1383288577
 10
421.9341538622
 20
-331.810376826
 10
424.069577778
 20
-330.5776228393
 10
426.3699074124
 20
-329.4480615803
 10
428.820223769
 20
-328.4290191083
 10
431.4046375681
 20
-327.5271042449
 10
434.1063849007
 20
-326.7481655202
 10
436.9079458488
 20
-326.0972561492
 10
439.7911524864
 20
-325.5785960149
 10
442.737301491
 20
-325.1955492386
 10
445.7272898035
 20
-324.9506006093
 10
448.7417259224
 20
-324.8453384756
 10
451.7610602952
 20
-324.880444862
 10
454.7657091256
 20
-325.0556924269
 10
457.7361873985
 20
-325.3699452236
 10
460.6532300529
 20
-325.8211647822
 10
463.4979197394
 20
-326.4064245569
 10
466.2518066749
 20
-327.1219289337
 10
468.897033108
 20
-327.9630379422
 10
471.4164409909
 20
-328.9242959577
 10
473.7936941392
 20
-329.9994687681
 10
476.0133710869
 20
-331.1815850125
 10
478.061078356
 20
-332.4629772392
 10
479.9235340916
 20
-333.8353362702
 10
481.5886622336
 20
-335.2897594828
 10
483.0456636401
 20
-336.8168161983
 10
484.2850878681
 20
-338.4066012866
 10
485.2988973818
 20
-340.0488056873
 10
486.0805172729
 20
-341.7327785674
 10
486.6248780657
 20
-343.4475991733
 10
486.9284486446
 20
-345.1821460222
 10
486.9892612787
 20
-346.9251706544
 10
486.8069221582
 20
-348.6653675846
 10
486.3826127121
 20
-350.3914510967
 10
485.7190843393
 20
-352.092226715
 10
484.8206412867
 20
-353.7566664783
 10
483.6931110146
 20
-355.3739731883
 10
482.3438033671
 20
-356.9336587246
 10
480.7814717179
 20
-358.4256090538
 10
479.0162471155
 20
-359.8401465771
 10
477.0595776154
 20
-361.1680986089
 10
474.9241536996
 20
-362.4008525956
 10
472.6238240651
 20
-363.5304138546
 10
470.1735077085
 20
-364.5494563266
 10
467.5890939094
 20
-365.4513711899
 10
464.8873465768
 20
-366.2303099146
 10
462.0857856287
 20
-366.8812192857
 10
459.2025789911
 20
-367.39987942
 10
456.2564299865
 20
-367.7829261962
 10
453.266441674
 20
-368.0278748256
 10
450.2520055552
 20
-368.1331369593
 10
447.2326711823
 20
-368.0980305729
 10
444.228022352
 20
-367.9227830079
 10
441.2575440791
 20
-367.6085302113
 10
438.3405014246
 20
-367.1573106526
 10
435.4958117382
 20
-366.572050878
 10
432.7419248027
 20
-365.8565465011
 10
430.0966983695
 20
-365.0154374927
 10
427.5772904866
 20
-364.0541794772
 10
425.2000373383
 20
-362.9790066668
 10
422.9803603906
 20
-361.7968904224
  0
LWPOLYLINE
  5
D1
330
1F
100
AcDbEntity
  8
0
  6
Continuous
 62
     7
370
    25
100
AcDbPolyline
 90
       41
 70
   128
 43
0.0
 10
411.9968653269
 20
-114.5916395494
 10
412.0044701989
 20
-114.1557066125
 10
412.1868093193
 20
-112.4155096822
 10
412.6111187654
 20
-110.6894261702
 10
413.2746471383
 20
-108.9886505518
 10
414.1730901909
 20
-107.3242107885
 10
415.3006204629
 20
-105.7069040785
 10
416.6499281104
 20
-104.1472185422
 10
418.2122597597
 20
-102.6552682131
 10
419.9774843621
 20
-101.2407306897
 10
421.9341538622
 20
-99.912778658
 10
424.069577778
 20
-98.6800246713
 10
426.3699074124
 20
-97.5504634123
 10
428.820223769
 20
-96.5314209403
 10
431.4046375681
 20
-95.6295060769
 10
434.1063849007
 20
-94.8505673522
 10
436.9079458488
 20
-94.1996579812
 10
439.7911524864
 20
-93.6809978469
 10
442.737301491
 20
-93.2979510706
 10
445.7272898035
 20
-93.0530024413
 10
448.7417259224
 20
-92.9477403076
 10
451.7610602952
 20
-92.982846694
 10
454.7657091256
 20
-93.1580942589
 10
457.7361873985
 20
-93.4723470556
 10
460.6532300529
 20
-93.9235666142
 10
463.4979197394
 20
-94.5088263889
 10
466.2518066749
 20
-95.2243307657
 10
468.897033108
 20
-96.0654397742
 10
471.4164409909
 20
-97.0266977897
 10
473.7936941392
 20
-98.1018706001
 10
476.0133710869
 20
-99.2839868445
 10
478.061078356
 20
-100.5653790712
 10
479.9235340916
 20
-101.9377381022
 10
481.5886622336
 20
-103.3921613148
 10
483.0456636401
 20
-104.9192180303
 10
484.2850878681
 20
-106.5090031186
 10
485.2988973818
 20
-108.1512075193
 10
486.0805172729
 20
-109.8351803994
 10
486.6248780657
 20
-111.5500010053
 10
486.9284486446
 20
-113.2845478542
 10
486.9968661507
 20
-114.5916395494
  0
LWPOLYLINE
  5
D2
330
1F
100
AcDbEntity
  8
0
  6
Continuous
 62
     7
370
    25
100
AcDbPolyline
 90
       71
 70
   128
 43
0.0
 10
427.7886875542
 20
-359.0211022351
 10
425.9301715612
 20
-357.8473052432
 10
424.2614026558
 20
-356.5820588217
 10
422.7958131704
 20
-355.2355518972
 10
421.5452055396
 20
-353.8186246274
 10
420.5196475919
 20
-352.3426851432
 10
419.7273968168
 20
-350.8196171676
 10
419.1748345107
 20
-349.2616842134
 10
418.8664051904
 20
-347.6814276973
 10
418.8045955199
 20
-346.0915741784
 10
418.9899007249
 20
-344.504921688
 10
419.4208311775
 20
-342.9342446867
 10
420.0939156896
 20
-341.3921917991
 10
421.0037350986
 20
-339.8911767047
 10
422.1429650724
 20
-338.4432849969
 10
423.5024334031
 20
-337.0601757185
 10
425.071191459
 20
-335.7529823279
 10
426.8366122253
 20
-334.5322317703
 10
428.7844797018
 20
-333.4077518114
 10
430.8991108156
 20
-332.3885960963
 10
433.1634815328
 20
-331.4829713474
 10
435.5593566734
 20
-330.6981669851
 10
438.0674504324
 20
-330.04050352
 10
440.6675665667
 20
-329.515275955
 10
443.3387699465
 20
-329.1267125369
 10
446.059557118
 20
-328.8779416819
 10
448.8080176467
 20
-328.7709672641
 10
451.5620231202
 20
-328.8066492273
 10
454.2994042962
 20
-328.984701684
 10
456.9981157386
 20
-329.3036891135
 10
459.6364327228
 20
-329.7610457508
 10
462.1931119199
 20
-330.3530877521
 10
464.6475678873
 20
-331.07504817
 10
466.9800390212
 20
-331.9211149709
 10
469.1717475837
 20
-332.8844747543
 10
471.2050439233
 20
-333.9573731997
 10
473.0635599163
 20
-335.1311701916
 10
474.7323288217
 20
-336.3964166132
 10
476.1979183071
 20
-337.7429235376
 10
477.4485259379
 20
-339.1598508074
 10
478.4740838857
 20
-340.6357902917
 10
479.2663346607
 20
-342.1588582672
 10
479.8188969669
 20
-343.7167912214
 10
480.1273262872
 20
-345.2970477376
 10
480.1891359576
 20
-346.8869012565
 10
480.0038307527
 20
-348.4735537469
 10
479.5729003001
 20
-350.0442307482
 10
478.8998157879
 20
-351.5862836358
 10
477.9899963789
 20
-353.0872987301
 10
476.8507664051
 20
-354.535190438
 10
475.4912980744
 20
-355.9182997163
 10
473.9225400186
 20
-357.2254931069
 10
472.1571192523
 20
-358.4462436646
 10
470.2092517758
 20
-359.5707236235
 10
468.0946206619
 20
-360.5898793386
 10
465.8302499448
 20
-361.4955040875
 10
463.4343748042
 20
-362.2803084497
 10
460.9262810452
 20
-362.9379719148
 10
458.3261649108
 20
-363.4631994799
 10
455.654961531
 20
-363.8517628979
 10
452.9341743596
 20
-364.100533753
 10
450.1857138308
 20
-364.2075081708
 10
447.4317083573
 20
-364.1718262076
 10
444.6943271814
 20
-363.9937737509
 10
441.9956157389
 20
-363.6747863214
 10
439.3572987548
 20
-363.2174296841
 10
436.8006195576
 20
-362.6253876828
 10
434.3461635903
 20
-361.9034272649
 10
432.0136924563
 20
-361.057360464
 10
429.8219838939
 20
-360.0940006806
 10
427.7886875542
 20
-359.0211022351
  0
ENDSEC
  0
SECTION
  2
OBJECTS
  0
DICTIONARY
  5
C
330
0
100
AcDbDictionary
281
     1
  3
ACAD_GROUP
350
D
  3
ACAD_LAYOUT
350
1A
  3
ACAD_MLINESTYLE
350
17
  3
ACAD_PLOTSETTINGS
350
19
  3
ACAD_PLOTSTYLENAME
350
E
  3
ACAD_SCALELIST
350
47
  0
DICTIONARY
  5
D
102
{ACAD_REACTORS
330
C
102
}
330
C
100
AcDbDictionary
281
     1
  0
DICTIONARY
  5
1A
102
{ACAD_REACTORS
330
C
102
}
330
C
100
AcDbDictionary
281
     1
  3
Layout1
350
1E
  3
Layout2
350
26
  3
Model
350
22
  0
DICTIONARY
  5
17
102
{ACAD_REACTORS
330
C
102
}
330
C
100
AcDbDictionary
281
     1
  3
Standard
350
18
  0
DICTIONARY
  5
19
102
{ACAD_REACTORS
330
C
102
}
330
C
100
AcDbDictionary
281
     1
  0
ACDBDICTIONARYWDFLT
  5
E
102
{ACAD_REACTORS
330
C
102
}
330
C
100
AcDbDictionary
281
     1
  3
Normal
350
F
100
AcDbDictionaryWithDefault
340
F
  0
DICTIONARY
  5
47
102
{ACAD_REACTORS
330
C
102
}
330
C
100
AcDbDictionary
281
     1
  3
A0
350
48
  3
A1
350
49
  3
A2
350
4A
  3
A3
350
4B
  3
A4
350
4C
  3
A5
350
4D
  3
A6
350
4E
  3
A7
350
4F
  3
A8
350
50
  3
A9
350
51
  3
B0
350
52
  3
B1
350
53
  3
B2
350
54
  3
B3
350
55
  3
B4
350
56
  3
B5
350
57
  3
B6
350
58
  3
B7
350
59
  3
B8
350
5A
  3
B9
350
5B
  3
C0
350
5C
  3
C1
350
5D
  3
C2
350
5E
  3
C3
350
5F
  3
C4
350
60
  3
C5
350
61
  3
C6
350
62
  3
C7
350
63
  3
C8
350
64
  3
C9
350
65
  3
D0
350
66
  3
D1
350
67
  3
D2
350
68
  0
LAYOUT
  5
1E
102
{ACAD_REACTORS
330
1A
102
}
330
1A
100
AcDbPlotSettings
  1

  2
none_device
  4

  6

 40
0.0
 41
0.0
 42
0.0
 43
0.0
 44
0.0
 45
0.0
 46
0.0
 47
0.0
 48
0.0
 49
0.0
140
0.0
141
0.0
142
1.0
143
1.0
 70
   688
 72
     1
 73
     0
 74
     5
  7

 75
    16
147
1.0
148
0.0
149
0.0
100
AcDbLayout
  1
Layout1
 70
     1
 71
     1
 10
0.0
 20
0.0
 11
420.0
 21
297.0
 12
0.0
 22
0.0
 32
0.0
 14
1.0000000000E+20
 24
1.0000000000E+20
 34
1.0000000000E+20
 15
-1.0000000000E+20
 25
-1.0000000000E+20
 35
-1.0000000000E+20
146
0.0
 13
0.0
 23
0.0
 33
0.0
 16
1.0
 26
0.0
 36
0.0
 17
0.0
 27
1.0
 37
0.0
 76
     0
330
1B
  0
LAYOUT
  5
26
102
{ACAD_REACTORS
330
1A
102
}
330
1A
100
AcDbPlotSettings
  1

  2
none_device
  4

  6

 40
0.0
 41
0.0
 42
0.0
 43
0.0
 44
0.0
 45
0.0
 46
0.0
 47
0.0
 48
0.0
 49
0.0
140
0.0
141
0.0
142
1.0
143
1.0
 70
   688
 72
     1
 73
     0
 74
     5
  7

 75
    16
147
1.0
148
0.0
149
0.0
100
AcDbLayout
  1
Layout2
 70
     1
 71
     2
 10
0.0
 20
0.0
 11
0.0
 21
0.0
 12
0.0
 22
0.0
 32
0.0
 14
0.0
 24
0.0
 34
0.0
 15
0.0
 25
0.0
 35
0.0
146
0.0
 13
0.0
 23
0.0
 33
0.0
 16
1.0
 26
0.0
 36
0.0
 17
0.0
 27
1.0
 37
0.0
 76
     0
330
23
  0
LAYOUT
  5
22
102
{ACAD_REACTORS
330
1A
102
}
330
1A
100
AcDbPlotSettings
  1

  2
none_device
  4
Letter_(8.50_x_11.00_Inches)
  6

 40
6.35
 41
6.35
 42
6.35000508
 43
6.35000508
 44
215.9
 45
279.4
 46
0.0
 47
0.0
 48
0.0
 49
0.0
140
0.0
141
0.0
142
1.0
143
1.0
 70
  1712
 72
     1
 73
     0
 74
     0
  7

 75
     0
147
1.0
148
0.0
149
0.0
100
AcDbLayout
  1
Model
 70
     1
 71
     0
 10
0.0
 20
0.0
 11
279.4
 21
215.9
 12
0.0
 22
0.0
 32
0.0
 14
0.0
 24
0.0
 34
0.0
 15
279.4
 25
215.9
 35
0.0
146
0.0
 13
0.0
 23
0.0
 33
0.0
 16
1.0
 26
0.0
 36
0.0
 17
0.0
 27
1.0
 37
0.0
 76
     0
330
1F
331
29
  0
MLINESTYLE
  5
18
102
{ACAD_REACTORS
330
17
102
}
330
17
100
AcDbMlineStyle
  2
Standard
 70
     0
  3

 62
   256
 51
90.0
 52
90.0
 71
     2
 49
0.5
 62
   256
  6
BYLAYER
 49
-0.5
 62
   256
  6
BYLAYER
  0
ACDBPLACEHOLDER
  5
F
102
{ACAD_REACTORS
330
E
102
}
330
E
  0
SCALE
  5
48
102
{ACAD_REACTORS
330
47
102
}
330
47
100
AcDbScale
 70
     0
300
1:1
140
1.0
141
1.0
290
     1
  0
SCALE
  5
49
102
{ACAD_REACTORS
330
47
102
}
330
47
100
AcDbScale
 70
     0
300
1:2
140
1.0
141
2.0
290
     0
  0
SCALE
  5
4A
102
{ACAD_REACTORS
330
47
102
}
330
47
100
AcDbScale
 70
     0
300
1:4
140
1.0
141
4.0
290
     0
  0
SCALE
  5
4B
102
{ACAD_REACTORS
330
47
102
}
330
47
100
AcDbScale
 70
     0
300
1:5
140
1.0
141
5.0
290
     0
  0
SCALE
  5
4C
102
{ACAD_REACTORS
330
47
102
}
330
47
100
AcDbScale
 70
     0
300
1:8
140
1.0
141
8.0
290
     0
  0
SCALE
  5
4D
102
{ACAD_REACTORS
330
47
102
}
330
47
100
AcDbScale
 70
     0
300
1:10
140
1.0
141
10.0
290
     0
  0
SCALE
  5
4E
102
{ACAD_REACTORS
330
47
102
}
330
47
100
AcDbScale
 70
     0
300
1:16
140
1.0
141
16.0
290
     0
  0
SCALE
  5
4F
102
{ACAD_REACTORS
330
47
102
}
330
47
100
AcDbScale
 70
     0
300
1:20
140
1.0
141
20.0
290
     0
  0
SCALE
  5
50
102
{ACAD_REACTORS
330
47
102
}
330
47
100
AcDbScale
 70
     0
300
1:30
140
1.0
141
30.0
290
     0
  0
SCALE
  5
51
102
{ACAD_REACTORS
330
47
102
}
330
47
100
AcDbScale
 70
     0
300
1:40
140
1.0
141
40.0
290
     0
  0
SCALE
  5
52
102
{ACAD_REACTORS
330
47
102
}
330
47
100
AcDbScale
 70
     0
300
1:50
140
1.0
141
50.0
290
     0
  0
SCALE
  5
53
102
{ACAD_REACTORS
330
47
102
}
330
47
100
AcDbScale
 70
     0
300
1:100
140
1.0
141
100.0
290
     0
  0
SCALE
  5
54
102
{ACAD_REACTORS
330
47
102
}
330
47
100
AcDbScale
 70
     0
300
2:1
140
2.0
141
1.0
290
     0
  0
SCALE
  5
55
102
{ACAD_REACTORS
330
47
102
}
330
47
100
AcDbScale
 70
     0
300
4:1
140
4.0
141
1.0
290
     0
  0
SCALE
  5
56
102
{ACAD_REACTORS
330
47
102
}
330
47
100
AcDbScale
 70
     0
300
8:1
140
8.0
141
1.0
290
     0
  0
SCALE
  5
57
102
{ACAD_REACTORS
330
47
102
}
330
47
100
AcDbScale
 70
     0
300
10:1
140
10.0
141
1.0
290
     0
  0
SCALE
  5
58
102
{ACAD_REACTORS
330
47
102
}
330
47
100
AcDbScale
 70
     0
300
100:1
140
100.0
141
1.0
290
     0
  0
SCALE
  5
59
102
{ACAD_REACTORS
330
47
102
}
330
47
100
AcDbScale
 70
     0
300
1/128" = 1'-0"
140
0.0078125
141
12.0
290
     0
  0
SCALE
  5
5A
102
{ACAD_REACTORS
330
47
102
}
330
47
100
AcDbScale
 70
     0
300
1/64" = 1'-0"
140
0.015625
141
12.0
290
     0
  0
SCALE
  5
5B
102
{ACAD_REACTORS
330
47
102
}
330
47
100
AcDbScale
 70
     0
300
1/32" = 1'-0"
140
0.03125
141
12.0
290
     0
  0
SCALE
  5
5C
102
{ACAD_REACTORS
330
47
102
}
330
47
100
AcDbScale
 70
     0
300
1/16" = 1'-0"
140
0.0625
141
12.0
290
     0
  0
SCALE
  5
5D
102
{ACAD_REACTORS
330
47
102
}
330
47
100
AcDbScale
 70
     0
300
3/32" = 1'-0"
140
0.09375
141
12.0
290
     0
  0
SCALE
  5
5E
102
{ACAD_REACTORS
330
47
102
}
330
47
100
AcDbScale
 70
     0
300
1/8" = 1'-0"
140
0.125
141
12.0
290
     0
  0
SCALE
  5
5F
102
{ACAD_REACTORS
330
47
102
}
330
47
100
AcDbScale
 70
     0
300
3/16" = 1'-0"
140
0.1875
141
12.0
290
     0
  0
SCALE
  5
60
102
{ACAD_REACTORS
330
47
102
}
330
47
100
AcDbScale
 70
     0
300
1/4" = 1'-0"
140
0.25
141
12.0
290
     0
  0
SCALE
  5
61
102
{ACAD_REACTORS
330
47
102
}
330
47
100
AcDbScale
 70
     0
300
3/8" = 1'-0"
140
0.375
141
12.0
290
     0
  0
SCALE
  5
62
102
{ACAD_REACTORS
330
47
102
}
330
47
100
AcDbScale
 70
     0
300
1/2" = 1'-0"
140
0.5
141
12.0
290
     0
  0
SCALE
  5
63
102
{ACAD_REACTORS
330
47
102
}
330
47
100
AcDbScale
 70
     0
300
3/4" = 1'-0"
140
0.75
141
12.0
290
     0
  0
SCALE
  5
64
102
{ACAD_REACTORS
330
47
102
}
330
47
100
AcDbScale
 70
     0
300
1" = 1'-0"
140
1.0
141
12.0
290
     0
  0
SCALE
  5
65
102
{ACAD_REACTORS
330
47
102
}
330
47
100
AcDbScale
 70
     0
300
1-1/2" = 1'-0"
140
1.5
141
12.0
290
     0
  0
SCALE
  5
66
102
{ACAD_REACTORS
330
47
102
}
330
47
100
AcDbScale
 70
     0
300
3" = 1'-0"
140
3.0
141
12.0
290
     0
  0
SCALE
  5
67
102
{ACAD_REACTORS
330
47
102
}
330
47
100
AcDbScale
 70
     0
300
6" = 1'-0"
140
6.0
141
12.0
290
     0
  0
SCALE
  5
68
102
{ACAD_REACTORS
330
47
102
}
330
47
100
AcDbScale
 70
     0
300
1'-0" = 1'-0"
140
12.0
141
12.0
290
     0
  0
ENDSEC
  0
EOF
